Disegnata

Album

È contenuto nei seguenti album:

Testo Della Canzone

Disegnata di Bandabardò

Devo finir di colorare il mondo che vorrei abitare
Un giorno, che piove, disegnerò sale
Con l’acqua del cielo mi farò il mare
Nascerà la sabbia per farci un altare
dove solo gli amici ci verranno a sposare.
Luna piena di gomma e falò
Con la faccia da mostro ti abbraccerò
Poi disegnerò una casa che sia grande da abitare
… che da davanti viene male.
Femo il tempo
e il disegno dirà
… baciami

Il testo contenuto in questa pagina è di proprietà dell’autore. WikiTesti è un’enciclopedia musicale con lo scopo di far conoscere a quante più persone possibile il panorama musicale.

[nextpage title=”Accordi per chitarra”]

Accordi

   
Intro:

N.C.
tu turu turututa  x2

main riff.-
Bm
e|--7h8h9h10-10--7----7-----7----- ------7--9--10--7-----7-----7-----    ----7-9---|
B|-----------------9-----8-----7-- ---9---------------9-----8-----7--    --9-------|
G|-------------------------------- ----------------------------------    ----------|
D|-------------------------------- ----------------------------------    ----------|
A|-------------------------------- ---------------------------------- x3 ----------|
E|-------------------------------- ----------------------------------    ----------|


e|---------------------------------------------------------------------------------|
B|---7----7----7--8------7---7----7--8--7--------7---7----7-----7----7-----7--8---|
G|------9---9--------------9---9-----------8-------9---9------------9---9----------|
D|---------------------------------------------------------------------------------|
A|---------------------------------------------------------------------------------|
E|---------------------------------------------------------------------------------|


Intro 2:

riff.1
e|--------10--10--9~~9~~-------|
B|-----------------------------|
G|-----------------------------|
D|-----------------------------|
A|-----------------------------| x8
E|-----------------------------|

Bm (riff.1)
Devo finir di colorare il mondo che vorrei abitare  x2


Verse 1:

                 F#              Bm
Un giorno, che piove, disegnerò sale

riff.2
e|-----------------------------|
B|----9---8--87/11~~----------|
G|-----------------------------|
D|-----------------------------|
A|-----------------------------|
E|-----------------------------|


                  F#              G        D (riff.2)
Con l'acqua del cielo mi farò il mare, il mare
            F#                     Bm
Nascerà la sabbia per farci un altare

riff.3
e|-----------------------------|
B|---9--8-9--8-9-/9~~9~~-------|
G|-----------------------------|
D|-----------------------------|
A|-----------------------------|
E|-----------------------------|

                F#                    G           D riff.2   F# riff.3
dove solo gli amici ci verranno a sposare, ci verranno a sposare.


Chorus (x2):

G      F#      Bm        F#
Luna piena di gomma e falò
G          F#     Bm    F#          G
Con la faccia da mostro ti abbraccerò


Bridge:
                                              riff.2
            F#     Bm            F#          G
Poi disegnerò una casa che sia grande da abitare
          D   Dsus2 D         Bm
che da davanti         viene male.


Solo 1:

F#  Bm  F#  G  D
E|--------------------------------------------------------------------
B|--------------------------------------------------------------------
G|-----------------------------9-11-12-12-12-12-11-12-11----11-11-11--
D|-----------1112-11-9-11-12------------------------------------------
A|-12-14-12-----------------------------------------------------------
E|--------------------------------------------------------------------


------------10-10-10-10-10-9----9------------------------------------|
--------12-------------------------12------12-10-12------------------|
-----------------------------------------------------11---11-12-11---|
---------------------------------------------------------------------|
---------------------------------------------------------------------|
---------------------------------------------------------------------|


play intro 2 (x3)


Chorus 2:

G         F#
Fermo il tempo
        Bm      F#     G F# Bm
e il disegno dirà     baciami.  X3


Solo 2:

e|---------------------------------------    ---------------------------------------
B|-7----7----7--8---7-------7----7----7-    -7---7----7--8--10~~10~----7---7----7-
G|----9---9------------9-------9---9-----    ---9---9---------------------9---9-----
D|---------------------------------------    ---------------------------------------
A|--------------------------------------- x2 ---------------------------------------
E|---------------------------------------    ---------------------------------------


------------------------------------------------- -10-10-9~~9--10--10--9~~9-9-|
-10-10-8~~8~-10-10-8~~8~--7---7--8--10--10~~10~- --------------------------    ---|
----------------------------9-------------------- --------------------------    ---|
------------------------------------------------- --------------------------    ---|
------------------------------------------------- -------------------------- x3 ---|
------------------------------------------------- --------------------------    ---|



LASCIA UN COMMENTO

Please enter your comment!
Please enter your name here